Форма входа

    Категории раздела

    Поиск

    Календарь

    «  Декабрь 2017  »
    ПнВтСрЧтПтСбВс
        123
    45678910
    11121314151617
    18192021222324
    25262728293031

    Наш опрос

    Самый красивый участник 30 Seconds To Mars?
    Всего ответов: 213

    Мини-чат

    200

    Друзья сайта

    Статистика


    Онлайн всего: 1
    Гостей: 1
    Пользователей: 0
    30 SECONDS TO MARS
    Вторник, 12.12.2017, 05:46
    Приветствую Вас Гость
    Главная | Регистрация | Вход | RSS

    Табулатура

     
    The Kill
     

    1Куплет
    e-----------------------------------------------------------------l
    b------------0---0----------0---0----------0---0---------0---0-l
    g-----------------------------------------------------------------l
    d------5---------------5---------------5-------------5---------l
    a---3----3---------3----3----------3----3--------3----3--------l
    e-----------------------------------------------------------------l

    e-----------------------------------------------------------------l
    b----------0---0----------0---0---------0---0-----------0---0--l
    g-----------------------------------------------------------------l
    d----5---------------5---------------5--------------5-----------l
    a-5----5----------5---5----------5---5---------5----5----------l
    e-----------------------------------------------------------------l

    e-----------------------------------------------------------------l
    b------------0---0----------0---0----------0---0---------0---0-l
    g-----------------------------------------------------------------l
    d------5--------------5----------------5-------------5---------l
    a---7----7---------7----7----------7----7--------7----7--------l
    e-----------------------------------------------------------------l

    e-----------------------------------------------------------------l
    b----------0---0----------0---0---------0---0-----------0---0--l
    g-----------------------------------------------------------------l
    d----5---------------5--------------5--------------5-----------l
    a-2----2----------2---2----------2---2---------2----2----------l
    e-----------------------------------------------------------------l
    повторить с начала

         
    Припев
    e----------------------------------------------------------------------------------l
    b----------------------------------------------------------------------------------l
    g--5--5--5--5--5--5--5--5--5--5--5--5--5--5--5--5--5--5--5--5--5--5--5--5-l
    d--5--5--5--5--5--5--5--5--5--5--5--5--5--5--5--5--5--5--5--5--5--5--5--5-l
    a--3--3--3--3--3--3--3--3--3--3--3--3--3--3--3--3--3--3--3--3--3--3--3--3-l
    e----------------------------------------------------------------------------------l

    e---------------------------------------------------------------------------------l
    b---------------------------------------------------------------------------------l
    g--7--7--7--7--7--7--7--7--7--7--7--7--7--7--7--7--7--7--7--7--7--7--7--7l
    d--7--7--7--7--7--7--7--7--7--7--7--7--7--7--7--7--7--7--7--7--7--7--7--7l
    a--5--5--5--5--5--5--5--5--5--5--5--5--5--5--5--5--5--5--5--5--5--5--5--5l
    e-------------------------------------------------------------------------------l

    e---------------------------------------------------------------------------------l
    b----------------------------------------------------------------------------------l
    g--9--9--9--9--9--9--9--9--9--9--9--9--9--9--9--9--9--9--9--9--9--9--9--9-l
    d--9--9--9--9--9--9--9--9--9--9--9--9--9--9--9--9--9--9--9--9--9--9--9--9-l
    a--7--7--7--7--7--7--7--7--7--7--7--7--7--7--7--7--7--7--7--7--7--7--7--7-l
    e----------------------------------------------------------------------------------l

    e------------------------------------------------------------------l
    b------------------------------------------------------------------l
    g-4--4--4--4--4--4--4--4--4--4--4--4--4--4--4--4--4--4----4-l
    d-4--4--4--4--4--4--4--4--4--4--4--4--4--4--4--4--4--4----4-l
    a-2--2--2--2--2--2--2--2--2--2--2--2--2--2--2--2--2--2----2-l
    e------------------------------------------------------------------l

    2Куплет
    e----------------------l-----------------------l--------------------l-----------------l
    b----------------------l-----------------------l--------------------l-----------------l
    g12--9----------------l12--9----------------l12--9--------------l12--9--------------l
    d--------10--9-----9-l--------10--9-----9-l--------10--9-----9-l-------10--9-----9-l
    a----------------10---l---------------10----l----------------10---l--------------10-l
    e----------------------l-----------------------l----------------------l-----------------l

    e--------------------l----------------------l----------------------l---------------------l
    b--------------------l----------------------l----------------------l---------------------l
    g------------12--12-l-------------12--12-l-------------12--12-l-------------12--12l
    d-9--10--9----------l-9--10--9-----------l--9--10--9----------l-9--10--9----------l
    a--------------------l----------------------l----------------------l---------------------l
    e--------------------l----------------------l----------------------l---------------------l

    e----------------------l---------------------l---------------------l---------------------l
    b----------------------l---------------------l---------------------l---------------------l
    g12--9----------------l12--9---------------l12--9--------------l12--9---------------l
    d--------10--9-----9-l--------10--9-----9-l-------10--9-----9-l-------10--9-----9-l
    a----------------10---l---------------10----l--------------10---l----------------10--l
    e----------------------l---------------------l---------------------l---------------------l

    e--------------------l---------------------l--------------------l-------------------l
    b--------------------l---------------------l--------------------l-------------------l
    g------------12--12-l------------12--12-l-----------10--10-l-----------10--10l
    d-9--10--9----------l-9--10--9----------l-9--10--9---------l-9--10--9----------l
    a--------------------l---------------------l--------------------l-------------------l
    e--------------------l---------------------l--------------------l-------------------l

    Повторить с начала куплета

    Припев дважды

    Бридж
    e---------------------------------------------------------------------------------l
    b---------------------------------------------------------------------------------l
    g--2--2--2--2--2--2--2--2--2--2--2--2--4--4--4--4--4--4--4--4--4--4--4--4-l
    d--2--2--2--2--2--2--2--2--2--2--2--2--4--4--4--4--4--4--4--4--4--4--4--4-l
    a--0--0--0--0--0--0--0--0--0--0--0--0--2--2--2--2--2--2--2--2--2--2--2--2-l
    e----------------------------------------------------------------------------------l

    e---------------------------------------------------------------------------------l
    b---------------------------------------------------------------------------------l
    g--9--9--9--9--9--9--9--9--9--9--9--9--9--9--9--9--9--9--9--9--9--9--9--9l
    d--9--9--9--9--9--9--9--9--9--9--9--9--9--9--9--9--9--9--9--9--9--9--9--9l
    a--7--7--7--7--7--7--7--7--7--7--7--7--7--7--7--7--7--7--7--7--7--7--7--7l
    e---------------------------------------------------------------------------------l

    e---------------------------------------------------------------------------------l
    b---------------------------------------------------------------------------------l
    g--5--5--5--5--5--5--5--5--5--5--5--5-l-7--7--7--7--7--7--7--7--7--7--7--7l
    d--5--5--5--5--5--5--5--5--5--5--5--5-l-7--7--7--7--7--7--7--7--7--7--7--7l
    a--3--3--3--3--3--3--3--3--3--3--3--3-l-5--5--5--5--5--5--5--5--5--5--5--5l
    e--------------------------------------------------------------------------------l

    e---------------------------------------------------------------------------------l
    b---------------------------------------------------------------------------------l
    g--9--9--9--9--9--9--9--9--9--9--9--9--9--9--9--9--9--9--9--9--9--9--9--9l
    d--9--9--9--9--9--9--9--9--9--9--9--9--9--9--9--9--9--9--9--9--9--9--9--9l
    a--7--7--7--7--7--7--7--7--7--7--7--7--7--7--7--7--7--7--7--7--7--7--7--7l
    e---------------------------------------------------------------------------------l

    e--------------------------------------------------------------------------------l
    b--------------------------------------------------------------------------------l
    g--5--5--5--5--5--5--5--5--5--5--5--5-l-7--7--7--7--7--7--7--7--7--7--7--7l
    d--5--5--5--5--5--5--5--5--5--5--5--5-l-7--7--7--7--7--7--7--7--7--7--7--7l
    a--3--3--3--3--3--3--3--3--3--3--3--3-l-5--5--5--5--5--5--5--5--5--5--5--5l
    e---------------------------------------------------------------------------------l

    e---------------------------------------------------------------------------------l
    b---------------------------------------------------------------------------------l
    g--9--9--9--9--9--9--9--9--9--9--9--9--9--9--9--9--9--9--9--9--9--9--9--9l
    d--9--9--9--9--9--9--9--9--9--9--9--9--9--9--9--9--9--9--9--9--9--9--9--9l
    a--7--7--7--7--7--7--7--7--7--7--7--7--7--7--7--7--7--7--7--7--7--7--7--7l
    e--------------------------------------------------------------------------------l

    e----------------------------------------------------------------------------------l
    b----------------------------------------------------------------------------------l
    g--5--5--5--5--5--5--5--5--5--5--5--5-l-7--7--7--7--7--7--7--7--7--7--7--7l
    d--5--5--5--5--5--5--5--5--5--5--5--5-l-7--7--7--7--7--7--7--7--7--7--7--7l
    a--3--3--3--3--3--3--3--3--3--3--3--3-l-5--5--5--5--5--5--5--5--5--5--5--5l
    e-------------------------------------------------------------------------------l

    e-------------------------------------------------------------l---------------------l
    b------------------------------------------------------------l----------------------l
    g--9--9--9--9--9--9--9--9--9--9--9--9--9--9--9--9--9--9l--9------9-------9--l
    d--9--9--9--9--9--9--9--9--9--9--9--9--9--9--9--9--9--9l--9------9-------9--l
    a--7--7--7--7--7--7--7--7--7--7--7--7--7--7--7--7--7--7l--7------7-------7--l
    e-------------------------------------------------------------l---------------------l

    Breakdown
    e--------------------------------------------l-----------------------------l
    b--------------------------------------------l-----------------------------l
    g--------------------------------------------l-5--5--5--5--5--5--5--5--5l     
    d--------------------------------------------l------------------------------l
    a--7-7-7-7-7-7-7-7-7-7-7-7-7-7-7-7-7-7l-3--3--3--3--3--3--3--3--3l
    e--------------------------------------------l------------------------------l

    Повторить 3 раза

    e---------------------------------------------------------l
    b---------------------------------------------------------l
    g--16--16--16--16--16--16--16--16--16--16--16--16l
    d---------------------------------------------------------l
    a--14--14--14--14--14--14--14--14--14--14--14--14l
    e---------------------------------------------------------l

    e---------------------------l-------------------------l
    b---------------------------l-------------------------l
    g14--14--14--14--14--14l12--12--12--12------l
    d---------------------------l-------------------------l
    a12--12--12--12--12--12l10--10--10--10-----l
    e---------------------------l-------------------------l

    e--7-----3------7-----3-----7------3------10-----5
    b-------------------------------------
    g-------------------------------------
    d--------------------------------------
    a-------------------------------------
    e-------------------------------------

    Припев 4р

    e-----------------------l-------------------l--------------------l---------------------l
    b-----------------------l-------------------l--------------------l---------------------l
    g-12--9---------------l12--9--------------l12--9-------------l12--9---------------l
    d--------10--9-----9-l-------10--9-----9-l------10--9-----9-l-------10--9----9-l
    a---------------10----l--------------10---l--------------10---l--------------10---l
    e-----------------------l-------------------l--------------------l-------------------l

    e---------------------l--------------------l--------------------l--------------------l
    b---------------------l--------------------l--------------------l--------------------l
    g------------12--12-l------------12--12-l-----------10--10-l------------10--10l
    d-9--10--9----------l-9--10--9----------l9--10--9----------l-9--10--9----------l
    a--------------------l---------------------l--------------------l--------------------l
    e--------------------l---------------------l--------------------l--------------------l
     
    Was It A Dream
     
    <!--StartFragment-->Intro/verse
    Eb:---------------------------------------|
    Bb:---------------------------------------|
    Gb:---------------------------------------|
    Db:------3---4---3--------6---------6-----|
    Ab:--1-1---1---1-----4-4------4--4--------|
    Eb:---------------------------------------|

    Eb:--------------------------------------|
    Bb:--------------------------------------|
    Gb:--------------------------------------|
    Db:------3---4---3--------6--------8-----|
    Ab:--1-1---1---1-----4-4------6--6-------|
    Eb:--------------------------------------|

    Eb:---------------------------------------|
    Bb:---------------------------------------|
    Gb:---------------------------------------|
    Db:------3---4---3--------6---------6-----|
    Ab:--1-1---1---1-----4-4------4--4--------|
    Eb:---------------------------------------|

    Eb:---------------------------------------|
    Bb:---------------------------------------|
    Gb:---------------------------------------|
    Db:-------6------6-------10-----10--------|
    Ab:------------------8-8----8-8-----------|
    Eb:---4-4----4-4--------------------------|


    chorus
    Eb:-----------------------|
    Bb:-----------------------|
    Gb:--6----8---------10----|
    Db:--6----8----8----10----|
    Ab:--4----6----8----8-----|
    Eb:------------6----------|


    Bridge       x4
    Eb:---------------|
    Bb:---------------|
    Gb:--10---8-------|
    Db:--10---6-------|
    Ab:--8----6-------|
    Eb:---------------|
        p.m.  p.m
     
     
    Savior
     
     <!--StartFragment-->Tuning:CGCFAD (Tune down 1 1/2 steps)

    Intro
    e|-------------------------------------------------------------------------|
    B|-------------------------------------------------------------------------|
    G|-------------------------------------------------------------------------|
    D|-11-11-11-11-11-11-11--9--9--9--9-11-12-11--6--6--7--7--7--9--9--9--7--7-|
    A|-------------------------------------------------------------------------|
    E|-------------------------------------------------------------------------|

    e|-------------------------------------------------------------------------|
    B|-------------------------------------------------------------------------|
    G|-------------------------------------------------------------------------|
    D|-7--6--11-11-11-11-11-11-11--9--9--9--9-11-12-11-6--6--7--7--7--9--------|
    A|-------------------------------------------------------------------------|
    E|-------------------------------------------------------------------------|

    Verse (Palm Mute - Guitar 1)
    e|-------------------------------------------------------------------------|
    B|-------------------------------------------------------------------------|
    G|-------------------------------------------------------------------------|
    D|-----------11------(x14)-------------------------------------------------|
    A|-9-9-9-9--9--9-----------------------------------------------------------|
    E|-------------------------------------------------------------------------|

    Verse (Distortion - Guitar 2)(You'll have to listen for it. Its a very short part)
    e|--9--9--9--9--9--9--9----------------------------------------------------|
    B|--9--9--9--9--9--9--9----------------------------------------------------|
    G|-11-11-11-11-11-11-11----------------------------------------------------|
    D|-11-11-11-11-11-11-11----------------------------------------------------|
    A|-------------------------------------------------------------------------|
    E|-------------------------------------------------------------------------|

    Bridge (Guitar 1 + 2)
    e|-9----9----9----9--------------------------------------------------------|
    B|-9----9----9----9--------------------------------------------------------|
    G|11---11---11---11--------------------------------------------------------|
    D|11---11---11---11--------------------------------------------------------|
    A|-9----9----9----9--------------------------------------------------------|
    E|-------------------------------------------------------------------------|

    Chorus (Distortion - Guitar 2)
    e|-------------------------------------------------------------------------|
    B|-------------------------------------------------------------------------|
    G|-------------------------------------------------------------------------|
    D|-7-7-7-9-9-9-4-4-4-4-4-4-----(x2)----------------------------------------|
    A|-7-7-7-9-9-9-4-4-4-4-4-4-------------------------------------------------|
    E|-7-7-7-9-9-9-4-4-4-4-4-4-------------------------------------------------|

    Chorus (Light Distortion - Guitar 1)
    e|---9-----------9---------------------------------------------------------|
    B|-----9-----------9-------------------------------------------------------|
    G|-------11-------------------(x8)-----------------------------------------|
    D|----------11-------------------------------------------------------------|
    A|-9-----------9-----------------------------------------------------------|
    E|-------------------------------------------------------------------------|

    That Little Funky Part
    e|-----5------7-------4----------------------------------------------------|
    B|----5------7-------4-----------------------------------------------------|
    G|---7------9-------6------------------------------------------------------|
    D|--7------9-------6-------------(x2)--------------------------------------|
    A|-5------7-------4--------------------------------------------------------|
    E|---------------4---------------------------------------------------------|

    That Other Little Funky Part
    e|-------------------------------------------------------------------------|
    B|-------------------------------------------------------------------------|
    G|-------------------------------------------------------------------------|
    D|------7---7-----6---6----------------------------------------------------|
    A|--4-4---4---4-4---4-------5---5-----4------------------------------------|
    E|----------------------5-5---5---4-4---4----------------------------------|

    Well thats all I got. Im not really sure if its right or not but it sounds
    close to me. I'm in love with this CD and you should be to. :)

    Cheers

    | /  slide up
    | \  slide down
    | h  hammer-on
    | p  pull-off
    | ~  vibrato
    | +  harmonic
    | x  Mute note